ISO-10303-21;
HEADER;
FILE_DESCRIPTION (( 'STEP AP203' ),
    '1' );
FILE_NAME ('250811 STEP 1-400936-00_6578A.STEP',
    '2025-08-11T13:24:18',
    ( '' ),
    ( '' ),
    'SwSTEP 2.0',
    'SolidWorks 2024',
    '' );
FILE_SCHEMA (( 'CONFIG_CONTROL_DESIGN' ));
ENDSEC;

DATA;
#1 = CALENDAR_DATE ( 2025, 11, 8 ) ;
#2 = ADVANCED_FACE ( 'NONE', ( #213, #271 ), #108, .F. ) ;
#3 = ORIENTED_EDGE ( 'NONE', *, *, #362, .T. ) ;
#4 = CONICAL_SURFACE ( 'NONE', #382, 45.96521478542192796, 0.9097867644083715843 ) ;
#5 = APPROVAL_DATE_TIME ( #71, #185 ) ;
#6 = CARTESIAN_POINT ( 'NONE',  ( 8.999999999999992895, 0.000000000000000000, 55.00000000000000000 ) ) ;
#7 = VERTEX_POINT ( 'NONE', #6 ) ;
#8 = DIRECTION ( 'NONE',  ( 0.000000000000000000, 0.000000000000000000, 1.000000000000000000 ) ) ;
#9 = MANIFOLD_SOLID_BREP ( 'DeleteFace1', #317 ) ;
#10 = ADVANCED_FACE ( 'NONE', ( #336, #55 ), #333, .F. ) ;
#11 = SECURITY_CLASSIFICATION ( '', '', #192 ) ;
#12 = DIRECTION ( 'NONE',  ( -1.000000000000000000, -0.000000000000000000, -0.000000000000000000 ) ) ;
#13 = CARTESIAN_POINT ( 'NONE',  ( 9.999999999999992895, 0.000000000000000000, 0.000000000000000000 ) ) ;
#14 = EDGE_CURVE ( 'NONE', #193, #193, #406, .T. ) ;
#15 = VERTEX_POINT ( 'NONE', #277 ) ;
#16 = EDGE_LOOP ( 'NONE', ( #240 ) ) ;
#17 = AXIS2_PLACEMENT_3D ( 'NONE', #211, #78, #207 ) ;
#18 = CARTESIAN_POINT ( 'NONE',  ( 0.000000000000000000, 0.000000000000000000, 0.000000000000000000 ) ) ;
#19 = ORIENTED_EDGE ( 'NONE', *, *, #362, .F. ) ;
#20 = DIRECTION ( 'NONE',  ( -1.000000000000000000, -0.000000000000000000, -0.000000000000000000 ) ) ;
#21 = ORIENTED_EDGE ( 'NONE', *, *, #155, .F. ) ;
#22 = AXIS2_PLACEMENT_3D ( 'NONE', #201, #41, #354 ) ;
#23 = ORIENTED_EDGE ( 'NONE', *, *, #323, .F. ) ;
#24 = PERSON_AND_ORGANIZATION ( #223, #278 ) ;
#25 = PRODUCT_DEFINITION_SHAPE ( 'NONE', 'NONE',  #242 ) ;
#26 = CYLINDRICAL_SURFACE ( 'NONE', #351, 22.50000000000000000 ) ;
#27 = APPROVAL_ROLE ( '' ) ;
#28 = EDGE_CURVE ( 'NONE', #7, #7, #196, .T. ) ;
#29 = DIRECTION ( 'NONE',  ( 0.000000000000000000, 0.000000000000000000, 1.000000000000000000 ) ) ;
#30 = PERSON_AND_ORGANIZATION_ROLE ( 'design_owner' ) ;
#31 = EDGE_LOOP ( 'NONE', ( #56 ) ) ;
#32 = TOROIDAL_SURFACE ( 'NONE', #189, 47.50000000000000000, 2.499999999999997780 ) ;
#33 = FACE_OUTER_BOUND ( 'NONE', #103, .T. ) ;
#34 = ORIENTED_EDGE ( 'NONE', *, *, #399, .F. ) ;
#35 = DATE_AND_TIME ( #1, #359 ) ;
#36 = DIRECTION ( 'NONE',  ( -1.000000000000000000, -0.000000000000000000, -0.000000000000000000 ) ) ;
#37 = CARTESIAN_POINT ( 'NONE',  ( -10.00000000000000711, 0.000000000000000000, 0.000000000000000000 ) ) ;
#38 = AXIS2_PLACEMENT_3D ( 'NONE', #151, #20, #274 ) ;
#39 = PERSON_AND_ORGANIZATION ( #223, #278 ) ;
#40 = APPROVAL_PERSON_ORGANIZATION ( #24, #185, #68 ) ;
#41 = DIRECTION ( 'NONE',  ( 1.000000000000000000, 0.000000000000000000, 0.000000000000000000 ) ) ;
#42 = ADVANCED_FACE ( 'NONE', ( #397, #57 ), #266, .F. ) ;
#43 = DIRECTION ( 'NONE',  ( -1.000000000000000000, -0.000000000000000000, -0.000000000000000000 ) ) ;
#44 = FACE_OUTER_BOUND ( 'NONE', #84, .T. ) ;
#45 = AXIS2_PLACEMENT_3D ( 'NONE', #147, #400, #374 ) ;
#46 = CARTESIAN_POINT ( 'NONE',  ( -6.674110784190714796, 0.000000000000000000, 0.000000000000000000 ) ) ;
#47 = EDGE_CURVE ( 'NONE', #134, #134, #96, .T. ) ;
#48 = PERSON_AND_ORGANIZATION ( #223, #278 ) ;
#49 = EDGE_LOOP ( 'NONE', ( #19 ) ) ;
#50 = VERTEX_POINT ( 'NONE', #295 ) ;
#51 = DIRECTION ( 'NONE',  ( -1.000000000000000000, 0.000000000000000000, -0.000000000000000000 ) ) ;
#52 = CONICAL_SURFACE ( 'NONE', #106, 55.00000000000000000, 0.9097867644083715843 ) ;
#53 = DIRECTION ( 'NONE',  ( -1.000000000000000000, -0.000000000000000000, -0.000000000000000000 ) ) ;
#54 = EDGE_CURVE ( 'NONE', #70, #70, #188, .T. ) ;
#55 = FACE_BOUND ( 'NONE', #156, .T. ) ;
#56 = ORIENTED_EDGE ( 'NONE', *, *, #28, .T. ) ;
#57 = FACE_BOUND ( 'NONE', #283, .T. ) ;
#58 = PERSON_AND_ORGANIZATION ( #223, #278 ) ;
#59 = CARTESIAN_POINT ( 'NONE',  ( 10.00000000000000355, 0.000000000000000000, 0.000000000000000000 ) ) ;
#60 = DIRECTION ( 'NONE',  ( 1.000000000000000000, 0.000000000000000000, 0.000000000000000000 ) ) ;
#61 = DIRECTION ( 'NONE',  ( -1.000000000000000000, -0.000000000000000000, -0.000000000000000000 ) ) ;
#62 = EDGE_LOOP ( 'NONE', ( #264 ) ) ;
#63 = AXIS2_PLACEMENT_3D ( 'NONE', #46, #172, #294 ) ;
#64 = ADVANCED_FACE ( 'NONE', ( #361, #178 ), #148, .F. ) ;
#65 = EDGE_LOOP ( 'NONE', ( #34 ) ) ;
#66 = CALENDAR_DATE ( 2025, 11, 8 ) ;
#67 = DIRECTION ( 'NONE',  ( 0.000000000000000000, 0.000000000000000000, 1.000000000000000000 ) ) ;
#68 = APPROVAL_ROLE ( '' ) ;
#69 = PRODUCT ( '250811 STEP 1-400936-00_6578A', '250811 STEP 1-400936-00_6578A', '', ( #360 ) ) ;
#70 = VERTEX_POINT ( 'NONE', #135 ) ;
#71 = DATE_AND_TIME ( #66, #76 ) ;
#72 = ADVANCED_FACE ( 'NONE', ( #327, #332 ), #302, .F. ) ;
#73 = FACE_OUTER_BOUND ( 'NONE', #31, .T. ) ;
#74 = DIRECTION ( 'NONE',  ( 0.000000000000000000, 0.000000000000000000, -1.000000000000000000 ) ) ;
#75 = DIRECTION ( 'NONE',  ( 0.000000000000000000, 0.000000000000000000, 1.000000000000000000 ) ) ;
#76 = LOCAL_TIME ( 16, 24, 18.00000000000000000, #347 ) ;
#77 = APPROVAL_DATE_TIME ( #124, #149 ) ;
#78 = DIRECTION ( 'NONE',  ( -1.000000000000000000, 0.000000000000000000, -0.000000000000000000 ) ) ;
#79 = DIRECTION ( 'NONE',  ( 0.000000000000000000, 0.000000000000000000, 1.000000000000000000 ) ) ;
#80 = UNCERTAINTY_MEASURE_WITH_UNIT (LENGTH_MEASURE( 1.000000000000000082E-05 ), #246, 'distance_accuracy_value', 'NONE');
#81 = AXIS2_PLACEMENT_3D ( 'NONE', #18, #392, #60 ) ;
#82 = DIRECTION ( 'NONE',  ( 0.000000000000000000, 0.000000000000000000, 1.000000000000000000 ) ) ;
#83 = ORIENTED_EDGE ( 'NONE', *, *, #54, .F. ) ;
#84 = EDGE_LOOP ( 'NONE', ( #107 ) ) ;
#85 = VERTEX_POINT ( 'NONE', #154 ) ;
#86 = ORIENTED_EDGE ( 'NONE', *, *, #14, .F. ) ;
#87 = APPROVAL ( #128, 'UNSPECIFIED' ) ;
#88 =( NAMED_UNIT ( * ) SI_UNIT ( $, .STERADIAN. ) SOLID_ANGLE_UNIT ( ) );
#89 = AXIS2_PLACEMENT_3D ( 'NONE', #115, #111, #239 ) ;
#90 = DIRECTION ( 'NONE',  ( -1.000000000000000000, -0.000000000000000000, -0.000000000000000000 ) ) ;
#91 = COORDINATED_UNIVERSAL_TIME_OFFSET ( 2, 0, .AHEAD. ) ;
#92 = FACE_BOUND ( 'NONE', #270, .T. ) ;
#93 = PERSON_AND_ORGANIZATION ( #223, #278 ) ;
#94 = CC_DESIGN_DATE_AND_TIME_ASSIGNMENT ( #198, #376, ( #11 ) ) ;
#95 = CARTESIAN_POINT ( 'NONE',  ( -10.00000000000000711, 0.000000000000000000, 0.000000000000000000 ) ) ;
#96 = CIRCLE ( 'NONE', #228, 39.07067067862185183 ) ;
#97 = CIRCLE ( 'NONE', #229, 55.00000000000000000 ) ;
#98 = CYLINDRICAL_SURFACE ( 'NONE', #320, 17.50000000000000000 ) ;
#99 = FACE_OUTER_BOUND ( 'NONE', #62, .T. ) ;
#100 = DIRECTION ( 'NONE',  ( -1.000000000000000000, -0.000000000000000000, -0.000000000000000000 ) ) ;
#101 = FACE_OUTER_BOUND ( 'NONE', #109, .T. ) ;
#102 = ORIENTED_EDGE ( 'NONE', *, *, #262, .F. ) ;
#103 = EDGE_LOOP ( 'NONE', ( #83 ) ) ;
#104 = CC_DESIGN_PERSON_AND_ORGANIZATION_ASSIGNMENT ( #48, #30, ( #69 ) ) ;
#105 = CARTESIAN_POINT ( 'NONE',  ( -10.00000000000000711, 0.000000000000000000, 0.000000000000000000 ) ) ;
#106 = AXIS2_PLACEMENT_3D ( 'NONE', #259, #140, #263 ) ;
#107 = ORIENTED_EDGE ( 'NONE', *, *, #399, .T. ) ;
#108 = PLANE ( 'NONE',  #203 ) ;
#109 = EDGE_LOOP ( 'NONE', ( #3 ) ) ;
#110 = CC_DESIGN_PERSON_AND_ORGANIZATION_ASSIGNMENT ( #39, #286, ( #122 ) ) ;
#111 = DIRECTION ( 'NONE',  ( 1.000000000000000000, 0.000000000000000000, 0.000000000000000000 ) ) ;
#112 = CIRCLE ( 'NONE', #45, 22.50000000000000000 ) ;
#113 = CIRCLE ( 'NONE', #182, 17.50000000000000000 ) ;
#114 = LOCAL_TIME ( 16, 24, 18.00000000000000000, #116 ) ;
#115 = CARTESIAN_POINT ( 'NONE',  ( -10.00000000000000711, 17.50000000000000000, 0.000000000000000000 ) ) ;
#116 = COORDINATED_UNIVERSAL_TIME_OFFSET ( 2, 0, .AHEAD. ) ;
#117 = FACE_OUTER_BOUND ( 'NONE', #301, .T. ) ;
#118 = VERTEX_POINT ( 'NONE', #324 ) ;
#119 = VERTEX_POINT ( 'NONE', #144 ) ;
#120 = AXIS2_PLACEMENT_3D ( 'NONE', #252, #219, #29 ) ;
#121 = DIRECTION ( 'NONE',  ( -1.000000000000000000, -0.000000000000000000, -0.000000000000000000 ) ) ;
#122 = PRODUCT_DEFINITION_FORMATION_WITH_SPECIFIED_SOURCE ( 'ANY', '', #69, .NOT_KNOWN. ) ;
#123 = EDGE_LOOP ( 'NONE', ( #208 ) ) ;
#124 = DATE_AND_TIME ( #306, #114 ) ;
#125 = CARTESIAN_POINT ( 'NONE',  ( -6.674110784190714796, 0.000000000000000000, 0.000000000000000000 ) ) ;
#126 = ADVANCED_FACE ( 'NONE', ( #117, #177 ), #298, .T. ) ;
#127 = DIRECTION ( 'NONE',  ( -1.000000000000000000, -0.000000000000000000, -0.000000000000000000 ) ) ;
#128 = APPROVAL_STATUS ( 'not_yet_approved' ) ;
#129 = FACE_OUTER_BOUND ( 'NONE', #123, .T. ) ;
#130 = AXIS2_PLACEMENT_3D ( 'NONE', #95, #403, #222 ) ;
#131 = ORIENTED_EDGE ( 'NONE', *, *, #258, .F. ) ;
#132 = LOCAL_TIME ( 16, 24, 18.00000000000000000, #194 ) ;
#133 = PERSON_AND_ORGANIZATION ( #223, #278 ) ;
#134 = VERTEX_POINT ( 'NONE', #224 ) ;
#135 = CARTESIAN_POINT ( 'NONE',  ( 1.499999999999997780, 0.000000000000000000, 22.50000000000000000 ) ) ;
#136 = PLANE ( 'NONE',  #169 ) ;
#137 = EDGE_LOOP ( 'NONE', ( #23 ) ) ;
#138 = LOCAL_TIME ( 16, 24, 18.00000000000000000, #244 ) ;
#139 = PLANE ( 'NONE',  #22 ) ;
#140 = DIRECTION ( 'NONE',  ( 1.000000000000000000, 0.000000000000000000, 0.000000000000000000 ) ) ;
#141 = EDGE_LOOP ( 'NONE', ( #395 ) ) ;
#142 = CARTESIAN_POINT ( 'NONE',  ( 9.999999999999992895, 50.00000000000000000, 0.000000000000000000 ) ) ;
#143 = AXIS2_PLACEMENT_3D ( 'NONE', #142, #51, #391 ) ;
#144 = CARTESIAN_POINT ( 'NONE',  ( -10.00000000000000711, 0.000000000000000000, -17.50000000000000000 ) ) ;
#145 = PRODUCT_RELATED_PRODUCT_CATEGORY ( 'detail', '', ( #69 ) ) ;
#146 = DIRECTION ( 'NONE',  ( 0.000000000000000000, 0.000000000000000000, -1.000000000000000000 ) ) ;
#147 = CARTESIAN_POINT ( 'NONE',  ( 10.00000000000000355, 0.000000000000000000, 0.000000000000000000 ) ) ;
#148 = PLANE ( 'NONE',  #17 ) ;
#149 = APPROVAL ( #408, 'UNSPECIFIED' ) ;
#150 = AXIS2_PLACEMENT_3D ( 'NONE', #307, #221, #318 ) ;
#151 = CARTESIAN_POINT ( 'NONE',  ( -6.674110784190714796, 0.000000000000000000, 0.000000000000000000 ) ) ;
#152 = CARTESIAN_POINT ( 'NONE',  ( -10.00000000000000711, 0.000000000000000000, 55.00000000000000000 ) ) ;
#153 = CARTESIAN_POINT ( 'NONE',  ( 1.973432123259498683, 0.000000000000000000, 45.96521478542192796 ) ) ;
#154 = CARTESIAN_POINT ( 'NONE',  ( -9.000000000000007105, 0.000000000000000000, 55.00000000000000000 ) ) ;
#155 = EDGE_CURVE ( 'NONE', #236, #236, #112, .T. ) ;
#156 = EDGE_LOOP ( 'NONE', ( #251 ) ) ;
#157 = DIRECTION ( 'NONE',  ( 0.000000000000000000, 0.000000000000000000, 1.000000000000000000 ) ) ;
#158 = EDGE_LOOP ( 'NONE', ( #131 ) ) ;
#159 = CC_DESIGN_PERSON_AND_ORGANIZATION_ASSIGNMENT ( #343, #187, ( #122 ) ) ;
#160 = DIRECTION ( 'NONE',  ( 0.000000000000000000, 0.000000000000000000, -1.000000000000000000 ) ) ;
#161 = AXIS2_PLACEMENT_3D ( 'NONE', #297, #180, #146 ) ;
#162 = APPROVAL_STATUS ( 'not_yet_approved' ) ;
#163 = APPLICATION_CONTEXT ( 'configuration controlled 3d designs of mechanical parts and assemblies' ) ;
#164 = CYLINDRICAL_SURFACE ( 'NONE', #63, 55.00000000000000000 ) ;
#165 = ORIENTED_EDGE ( 'NONE', *, *, #205, .T. ) ;
#166 = FACE_OUTER_BOUND ( 'NONE', #141, .T. ) ;
#167 = CARTESIAN_POINT ( 'NONE',  ( -1.500000000000002665, 22.50000000000000000, 0.000000000000000000 ) ) ;
#168 = CC_DESIGN_DATE_AND_TIME_ASSIGNMENT ( #214, #304, ( #242 ) ) ;
#169 = AXIS2_PLACEMENT_3D ( 'NONE', #167, #257, #74 ) ;
#170 = CC_DESIGN_APPROVAL ( #149, ( #242 ) ) ;
#171 = AXIS2_PLACEMENT_3D ( 'NONE', #292, #12, #8 ) ;
#172 = DIRECTION ( 'NONE',  ( -1.000000000000000000, -0.000000000000000000, -0.000000000000000000 ) ) ;
#173 = EDGE_LOOP ( 'NONE', ( #202 ) ) ;
#174 = PERSON_AND_ORGANIZATION_ROLE ( 'creator' ) ;
#175 = VERTEX_POINT ( 'NONE', #390 ) ;
#176 = DIRECTION ( 'NONE',  ( -1.000000000000000000, -0.000000000000000000, -0.000000000000000000 ) ) ;
#177 = FACE_OUTER_BOUND ( 'NONE', #231, .T. ) ;
#178 = FACE_BOUND ( 'NONE', #272, .T. ) ;
#179 = EDGE_LOOP ( 'NONE', ( #279 ) ) ;
#180 = DIRECTION ( 'NONE',  ( 1.000000000000000000, 0.000000000000000000, 0.000000000000000000 ) ) ;
#181 = CC_DESIGN_PERSON_AND_ORGANIZATION_ASSIGNMENT ( #133, #255, ( #11 ) ) ;
#182 = AXIS2_PLACEMENT_3D ( 'NONE', #59, #305, #250 ) ;
#183 = CARTESIAN_POINT ( 'NONE',  ( -10.00000000000000711, 0.000000000000000000, -22.50000000000000000 ) ) ;
#184 = ORIENTED_EDGE ( 'NONE', *, *, #28, .F. ) ;
#185 = APPROVAL ( #162, 'UNSPECIFIED' ) ;
#186 = DIRECTION ( 'NONE',  ( 0.000000000000000000, 0.000000000000000000, 1.000000000000000000 ) ) ;
#187 = PERSON_AND_ORGANIZATION_ROLE ( 'design_supplier' ) ;
#188 = CIRCLE ( 'NONE', #389, 22.50000000000000000 ) ;
#189 = AXIS2_PLACEMENT_3D ( 'NONE', #285, #100, #291 ) ;
#190 = CALENDAR_DATE ( 2025, 11, 8 ) ;
#191 = ADVANCED_FACE ( 'NONE', ( #377, #92 ), #4, .T. ) ;
#192 = SECURITY_CLASSIFICATION_LEVEL ( 'unclassified' ) ;
#193 = VERTEX_POINT ( 'NONE', #314 ) ;
#194 = COORDINATED_UNIVERSAL_TIME_OFFSET ( 2, 0, .AHEAD. ) ;
#195 = DIRECTION ( 'NONE',  ( -1.000000000000000000, -0.000000000000000000, -0.000000000000000000 ) ) ;
#196 = CIRCLE ( 'NONE', #357, 55.00000000000000000 ) ;
#197 = CC_DESIGN_SECURITY_CLASSIFICATION ( #11, ( #122 ) ) ;
#198 = DATE_AND_TIME ( #190, #132 ) ;
#199 = DIRECTION ( 'NONE',  ( 0.000000000000000000, 0.000000000000000000, 1.000000000000000000 ) ) ;
#200 = ADVANCED_FACE ( 'NONE', ( #129, #247 ), #348, .T. ) ;
#201 = CARTESIAN_POINT ( 'NONE',  ( -10.00000000000000711, 50.00000000000000000, 0.000000000000000000 ) ) ;
#202 = ORIENTED_EDGE ( 'NONE', *, *, #54, .T. ) ;
#203 = AXIS2_PLACEMENT_3D ( 'NONE', #369, #394, #238 ) ;
#204 = PERSON_AND_ORGANIZATION ( #223, #278 ) ;
#205 = EDGE_CURVE ( 'NONE', #337, #337, #248, .T. ) ;
#206 = APPLICATION_PROTOCOL_DEFINITION ( 'international standard', 'config_control_design', 1994, #226 ) ;
#207 = DIRECTION ( 'NONE',  ( -0.000000000000000000, 0.000000000000000000, 1.000000000000000000 ) ) ;
#208 = ORIENTED_EDGE ( 'NONE', *, *, #234, .F. ) ;
#209 = AXIS2_PLACEMENT_3D ( 'NONE', #379, #36, #310 ) ;
#210 = AXIS2_PLACEMENT_3D ( 'NONE', #105, #380, #383 ) ;
#211 = CARTESIAN_POINT ( 'NONE',  ( 10.00000000000000178, 17.50000000000000355, 0.000000000000000000 ) ) ;
#212 = ADVANCED_FACE ( 'NONE', ( #282, #370 ), #98, .F. ) ;
#213 = FACE_OUTER_BOUND ( 'NONE', #179, .T. ) ;
#214 = DATE_AND_TIME ( #368, #138 ) ;
#215 = EDGE_LOOP ( 'NONE', ( #165 ) ) ;
#216 = CIRCLE ( 'NONE', #330, 22.50000000000000000 ) ;
#217 = ADVANCED_FACE ( 'NONE', ( #409, #33 ), #26, .T. ) ;
#218 = VERTEX_POINT ( 'NONE', #401 ) ;
#219 = DIRECTION ( 'NONE',  ( -1.000000000000000000, -0.000000000000000000, -0.000000000000000000 ) ) ;
#220 = APPROVAL_ROLE ( '' ) ;
#221 = DIRECTION ( 'NONE',  ( -1.000000000000000000, -0.000000000000000000, -0.000000000000000000 ) ) ;
#222 = DIRECTION ( 'NONE',  ( 0.000000000000000000, 0.000000000000000000, -1.000000000000000000 ) ) ;
#223 = PERSON ( 'UNSPECIFIED', 'UNSPECIFIED', 'UNSPECIFIED', ('UNSPECIFIED'), ('UNSPECIFIED'), ('UNSPECIFIED') ) ;
#224 = CARTESIAN_POINT ( 'NONE',  ( 1.499999999999992673, 0.000000000000000000, 39.07067067862185183 ) ) ;
#225 = EDGE_LOOP ( 'NONE', ( #296 ) ) ;
#226 = APPLICATION_CONTEXT ( 'configuration controlled 3d designs of mechanical parts and assemblies' ) ;
#227 = DIRECTION ( 'NONE',  ( -1.000000000000000000, -0.000000000000000000, -0.000000000000000000 ) ) ;
#228 = AXIS2_PLACEMENT_3D ( 'NONE', #243, #237, #363 ) ;
#229 = AXIS2_PLACEMENT_3D ( 'NONE', #381, #43, #75 ) ;
#230 = EDGE_CURVE ( 'NONE', #218, #218, #113, .T. ) ;
#231 = EDGE_LOOP ( 'NONE', ( #312 ) ) ;
#232 = FACE_BOUND ( 'NONE', #16, .T. ) ;
#233 = DIRECTION ( 'NONE',  ( -1.000000000000000000, -0.000000000000000000, -0.000000000000000000 ) ) ;
#234 = EDGE_CURVE ( 'NONE', #339, #339, #267, .T. ) ;
#235 = CIRCLE ( 'NONE', #260, 45.96521478542192796 ) ;
#236 = VERTEX_POINT ( 'NONE', #402 ) ;
#237 = DIRECTION ( 'NONE',  ( -1.000000000000000000, -0.000000000000000000, -0.000000000000000000 ) ) ;
#238 = DIRECTION ( 'NONE',  ( -0.000000000000000000, 0.000000000000000000, 1.000000000000000000 ) ) ;
#239 = DIRECTION ( 'NONE',  ( 0.000000000000000000, 0.000000000000000000, -1.000000000000000000 ) ) ;
#240 = ORIENTED_EDGE ( 'NONE', *, *, #404, .F. ) ;
#241 = AXIS2_PLACEMENT_3D ( 'NONE', #386, #387, #355 ) ;
#242 = PRODUCT_DEFINITION ( 'UNKNOWN', '', #122, #331 ) ;
#243 = CARTESIAN_POINT ( 'NONE',  ( 1.499999999999992673, 0.000000000000000000, 0.000000000000000000 ) ) ;
#244 = COORDINATED_UNIVERSAL_TIME_OFFSET ( 2, 0, .AHEAD. ) ;
#245 = CARTESIAN_POINT ( 'NONE',  ( 8.999999999999992895, 0.000000000000000000, 0.000000000000000000 ) ) ;
#246 =( LENGTH_UNIT ( ) NAMED_UNIT ( * ) SI_UNIT ( .MILLI., .METRE. ) );
#247 = FACE_OUTER_BOUND ( 'NONE', #299, .T. ) ;
#248 = CIRCLE ( 'NONE', #130, 22.50000000000000000 ) ;
#249 = CIRCLE ( 'NONE', #210, 50.00000000000000000 ) ;
#250 = DIRECTION ( 'NONE',  ( 0.000000000000000000, 0.000000000000000000, 1.000000000000000000 ) ) ;
#251 = ORIENTED_EDGE ( 'NONE', *, *, #341, .F. ) ;
#252 = CARTESIAN_POINT ( 'NONE',  ( -10.00000000000000711, 0.000000000000000000, 0.000000000000000000 ) ) ;
#253 = CC_DESIGN_PERSON_AND_ORGANIZATION_ASSIGNMENT ( #204, #174, ( #242 ) ) ;
#254 = DIRECTION ( 'NONE',  ( 0.000000000000000000, 0.000000000000000000, 1.000000000000000000 ) ) ;
#255 = PERSON_AND_ORGANIZATION_ROLE ( 'classification_officer' ) ;
#256 = FACE_BOUND ( 'NONE', #158, .T. ) ;
#257 = DIRECTION ( 'NONE',  ( 1.000000000000000000, 0.000000000000000000, 0.000000000000000000 ) ) ;
#258 = EDGE_CURVE ( 'NONE', #275, #275, #235, .T. ) ;
#259 = CARTESIAN_POINT ( 'NONE',  ( 8.999999999999992895, 0.000000000000000000, 0.000000000000000000 ) ) ;
#260 = AXIS2_PLACEMENT_3D ( 'NONE', #340, #61, #186 ) ;
#261 = FACE_BOUND ( 'NONE', #371, .T. ) ;
#262 = EDGE_CURVE ( 'NONE', #15, #15, #342, .T. ) ;
#263 = DIRECTION ( 'NONE',  ( 0.000000000000000000, 0.000000000000000000, -1.000000000000000000 ) ) ;
#264 = ORIENTED_EDGE ( 'NONE', *, *, #234, .T. ) ;
#265 =( NAMED_UNIT ( * ) PLANE_ANGLE_UNIT ( ) SI_UNIT ( $, .RADIAN. ) );
#266 = PLANE ( 'NONE',  #143 ) ;
#267 = CIRCLE ( 'NONE', #120, 55.00000000000000000 ) ;
#268 = ORIENTED_EDGE ( 'NONE', *, *, #262, .T. ) ;
#269 = DIRECTION ( 'NONE',  ( 0.000000000000000000, 0.000000000000000000, 1.000000000000000000 ) ) ;
#270 = EDGE_LOOP ( 'NONE', ( #268 ) ) ;
#271 = FACE_BOUND ( 'NONE', #173, .T. ) ;
#272 = EDGE_LOOP ( 'NONE', ( #356 ) ) ;
#273 = CONICAL_SURFACE ( 'NONE', #171, 50.00000000000000000, 0.9097867644083715843 ) ;
#274 = DIRECTION ( 'NONE',  ( 0.000000000000000000, 0.000000000000000000, 1.000000000000000000 ) ) ;
#275 = VERTEX_POINT ( 'NONE', #153 ) ;
#276 = CARTESIAN_POINT ( 'NONE',  ( -6.674110784190714796, 0.000000000000000000, 0.000000000000000000 ) ) ;
#277 = CARTESIAN_POINT ( 'NONE',  ( -1.973432123259512672, 0.000000000000000000, 45.96521478542192796 ) ) ;
#278 = ORGANIZATION ( 'UNSPECIFIED', 'UNSPECIFIED', '' ) ;
#279 = ORIENTED_EDGE ( 'NONE', *, *, #47, .F. ) ;
#280 = ORIENTED_EDGE ( 'NONE', *, *, #316, .T. ) ;
#281 = ADVANCED_FACE ( 'NONE', ( #319, #99 ), #139, .F. ) ;
#282 = FACE_OUTER_BOUND ( 'NONE', #366, .T. ) ;
#283 = EDGE_LOOP ( 'NONE', ( #289 ) ) ;
#284 = AXIS2_PLACEMENT_3D ( 'NONE', #364, #329, #79 ) ;
#285 = CARTESIAN_POINT ( 'NONE',  ( -5.937713926855223438E-15, 0.000000000000000000, 0.000000000000000000 ) ) ;
#286 = PERSON_AND_ORGANIZATION_ROLE ( 'creator' ) ;
#287 = ADVANCED_FACE ( 'NONE', ( #232, #349 ), #136, .F. ) ;
#288 = CARTESIAN_POINT ( 'NONE',  ( -1.500000000000003109, 0.000000000000000000, 0.000000000000000000 ) ) ;
#289 = ORIENTED_EDGE ( 'NONE', *, *, #14, .T. ) ;
#290 = APPROVAL_DATE_TIME ( #35, #87 ) ;
#291 = DIRECTION ( 'NONE',  ( 0.000000000000000000, 0.000000000000000000, 1.000000000000000000 ) ) ;
#292 = CARTESIAN_POINT ( 'NONE',  ( -10.00000000000000711, 0.000000000000000000, 0.000000000000000000 ) ) ;
#293 = AXIS2_PLACEMENT_3D ( 'NONE', #13, #195, #199 ) ;
#294 = DIRECTION ( 'NONE',  ( 0.000000000000000000, 0.000000000000000000, 1.000000000000000000 ) ) ;
#295 = CARTESIAN_POINT ( 'NONE',  ( -1.500000000000002220, 0.000000000000000000, 39.07067067862185183 ) ) ;
#296 = ORIENTED_EDGE ( 'NONE', *, *, #47, .T. ) ;
#297 = CARTESIAN_POINT ( 'NONE',  ( 1.499999999999992673, 0.000000000000000000, 0.000000000000000000 ) ) ;
#298 = CYLINDRICAL_SURFACE ( 'NONE', #38, 22.50000000000000000 ) ;
#299 = EDGE_LOOP ( 'NONE', ( #346 ) ) ;
#300 = ORIENTED_EDGE ( 'NONE', *, *, #155, .T. ) ;
#301 = EDGE_LOOP ( 'NONE', ( #388 ) ) ;
#302 = CONICAL_SURFACE ( 'NONE', #161, 39.07067067862185183, 0.9097867644083718064 ) ;
#303 =( GEOMETRIC_REPRESENTATION_CONTEXT ( 3 ) GLOBAL_UNCERTAINTY_ASSIGNED_CONTEXT ( ( #80 ) ) GLOBAL_UNIT_ASSIGNED_CONTEXT ( ( #246, #265, #88 ) ) REPRESENTATION_CONTEXT ( 'NONE', 'WORKASPACE' ) );
#304 = DATE_TIME_ROLE ( 'creation_date' ) ;
#305 = DIRECTION ( 'NONE',  ( -1.000000000000000000, -0.000000000000000000, -0.000000000000000000 ) ) ;
#306 = CALENDAR_DATE ( 2025, 11, 8 ) ;
#307 = CARTESIAN_POINT ( 'NONE',  ( -1.973432123259512672, 0.000000000000000000, 0.000000000000000000 ) ) ;
#308 = EDGE_LOOP ( 'NONE', ( #280 ) ) ;
#309 = CIRCLE ( 'NONE', #293, 55.00000000000000000 ) ;
#310 = DIRECTION ( 'NONE',  ( 0.000000000000000000, 0.000000000000000000, 1.000000000000000000 ) ) ;
#311 = ADVANCED_FACE ( 'NONE', ( #261, #44 ), #273, .F. ) ;
#312 = ORIENTED_EDGE ( 'NONE', *, *, #404, .T. ) ;
#313 = SHAPE_DEFINITION_REPRESENTATION ( #25, #353 ) ;
#314 = CARTESIAN_POINT ( 'NONE',  ( 9.999999999999992895, 0.000000000000000000, 50.00000000000000000 ) ) ;
#315 = ORIENTED_EDGE ( 'NONE', *, *, #230, .F. ) ;
#316 = EDGE_CURVE ( 'NONE', #50, #50, #396, .T. ) ;
#317 = CLOSED_SHELL ( 'NONE', ( #64, #217, #2, #72, #42, #334, #385, #328, #191, #200, #281, #311, #287, #126, #10, #212 ) ) ;
#318 = DIRECTION ( 'NONE',  ( 0.000000000000000000, 0.000000000000000000, 1.000000000000000000 ) ) ;
#319 = FACE_BOUND ( 'NONE', #65, .T. ) ;
#320 = AXIS2_PLACEMENT_3D ( 'NONE', #125, #121, #254 ) ;
#321 = FACE_OUTER_BOUND ( 'NONE', #322, .T. ) ;
#322 = EDGE_LOOP ( 'NONE', ( #184 ) ) ;
#323 = EDGE_CURVE ( 'NONE', #85, #85, #97, .T. ) ;
#324 = CARTESIAN_POINT ( 'NONE',  ( -1.500000000000003109, 0.000000000000000000, 22.50000000000000000 ) ) ;
#325 = ORIENTED_EDGE ( 'NONE', *, *, #316, .F. ) ;
#326 = APPLICATION_PROTOCOL_DEFINITION ( 'international standard', 'config_control_design', 1994, #163 ) ;
#327 = FACE_OUTER_BOUND ( 'NONE', #393, .T. ) ;
#328 = ADVANCED_FACE ( 'NONE', ( #352, #166 ), #32, .F. ) ;
#329 = DIRECTION ( 'NONE',  ( -1.000000000000000000, -0.000000000000000000, -0.000000000000000000 ) ) ;
#330 = AXIS2_PLACEMENT_3D ( 'NONE', #288, #233, #67 ) ;
#331 = DESIGN_CONTEXT ( 'detailed design', #163, 'design' ) ;
#332 = FACE_BOUND ( 'NONE', #225, .T. ) ;
#333 = PLANE ( 'NONE',  #89 ) ;
#334 = ADVANCED_FACE ( 'NONE', ( #321, #101 ), #164, .T. ) ;
#335 = VERTEX_POINT ( 'NONE', #358 ) ;
#336 = FACE_OUTER_BOUND ( 'NONE', #215, .T. ) ;
#337 = VERTEX_POINT ( 'NONE', #183 ) ;
#338 = DIRECTION ( 'NONE',  ( 0.000000000000000000, 0.000000000000000000, 1.000000000000000000 ) ) ;
#339 = VERTEX_POINT ( 'NONE', #152 ) ;
#340 = CARTESIAN_POINT ( 'NONE',  ( 1.973432123259498683, 0.000000000000000000, 0.000000000000000000 ) ) ;
#341 = EDGE_CURVE ( 'NONE', #119, #119, #398, .T. ) ;
#342 = CIRCLE ( 'NONE', #150, 45.96521478542192796 ) ;
#343 = PERSON_AND_ORGANIZATION ( #223, #278 ) ;
#344 = CC_DESIGN_APPROVAL ( #87, ( #11 ) ) ;
#345 = CARTESIAN_POINT ( 'NONE',  ( -1.973432123259512672, 0.000000000000000000, 0.000000000000000000 ) ) ;
#346 = ORIENTED_EDGE ( 'NONE', *, *, #323, .T. ) ;
#347 = COORDINATED_UNIVERSAL_TIME_OFFSET ( 2, 0, .AHEAD. ) ;
#348 = CYLINDRICAL_SURFACE ( 'NONE', #209, 55.00000000000000000 ) ;
#349 = FACE_OUTER_BOUND ( 'NONE', #308, .T. ) ;
#350 = EDGE_LOOP ( 'NONE', ( #102 ) ) ;
#351 = AXIS2_PLACEMENT_3D ( 'NONE', #276, #90, #338 ) ;
#352 = FACE_OUTER_BOUND ( 'NONE', #350, .T. ) ;
#353 = ADVANCED_BREP_SHAPE_REPRESENTATION ( '250811 STEP 1-400936-00_6578A', ( #9, #81 ), #303 ) ;
#354 = DIRECTION ( 'NONE',  ( 0.000000000000000000, 0.000000000000000000, -1.000000000000000000 ) ) ;
#355 = DIRECTION ( 'NONE',  ( 0.000000000000000000, 0.000000000000000000, 1.000000000000000000 ) ) ;
#356 = ORIENTED_EDGE ( 'NONE', *, *, #230, .T. ) ;
#357 = AXIS2_PLACEMENT_3D ( 'NONE', #245, #53, #269 ) ;
#358 = CARTESIAN_POINT ( 'NONE',  ( 9.999999999999992895, 0.000000000000000000, 55.00000000000000000 ) ) ;
#359 = LOCAL_TIME ( 16, 24, 18.00000000000000000, #91 ) ;
#360 = MECHANICAL_CONTEXT ( 'NONE', #226, 'mechanical' ) ;
#361 = FACE_OUTER_BOUND ( 'NONE', #373, .T. ) ;
#362 = EDGE_CURVE ( 'NONE', #335, #335, #309, .T. ) ;
#363 = DIRECTION ( 'NONE',  ( 0.000000000000000000, 0.000000000000000000, 1.000000000000000000 ) ) ;
#364 = CARTESIAN_POINT ( 'NONE',  ( 9.999999999999992895, 0.000000000000000000, 0.000000000000000000 ) ) ;
#365 = CC_DESIGN_APPROVAL ( #185, ( #122 ) ) ;
#366 = EDGE_LOOP ( 'NONE', ( #384 ) ) ;
#367 = CARTESIAN_POINT ( 'NONE',  ( 1.499999999999997780, 0.000000000000000000, 0.000000000000000000 ) ) ;
#368 = CALENDAR_DATE ( 2025, 11, 8 ) ;
#369 = CARTESIAN_POINT ( 'NONE',  ( 1.499999999999995337, 22.50000000000000000, 0.000000000000000000 ) ) ;
#370 = FACE_OUTER_BOUND ( 'NONE', #375, .T. ) ;
#371 = EDGE_LOOP ( 'NONE', ( #325 ) ) ;
#372 = APPROVAL_PERSON_ORGANIZATION ( #93, #87, #220 ) ;
#373 = EDGE_LOOP ( 'NONE', ( #21 ) ) ;
#374 = DIRECTION ( 'NONE',  ( 0.000000000000000000, 0.000000000000000000, 1.000000000000000000 ) ) ;
#375 = EDGE_LOOP ( 'NONE', ( #315 ) ) ;
#376 = DATE_TIME_ROLE ( 'classification_date' ) ;
#377 = FACE_OUTER_BOUND ( 'NONE', #137, .T. ) ;
#378 = APPROVAL_PERSON_ORGANIZATION ( #58, #149, #27 ) ;
#379 = CARTESIAN_POINT ( 'NONE',  ( -6.674110784190714796, 0.000000000000000000, 0.000000000000000000 ) ) ;
#380 = DIRECTION ( 'NONE',  ( -1.000000000000000000, -0.000000000000000000, -0.000000000000000000 ) ) ;
#381 = CARTESIAN_POINT ( 'NONE',  ( -9.000000000000007105, 0.000000000000000000, 0.000000000000000000 ) ) ;
#382 = AXIS2_PLACEMENT_3D ( 'NONE', #345, #127, #157 ) ;
#383 = DIRECTION ( 'NONE',  ( 0.000000000000000000, 0.000000000000000000, 1.000000000000000000 ) ) ;
#384 = ORIENTED_EDGE ( 'NONE', *, *, #341, .T. ) ;
#385 = ADVANCED_FACE ( 'NONE', ( #256, #73 ), #52, .T. ) ;
#386 = CARTESIAN_POINT ( 'NONE',  ( -1.500000000000002220, 0.000000000000000000, 0.000000000000000000 ) ) ;
#387 = DIRECTION ( 'NONE',  ( -1.000000000000000000, -0.000000000000000000, -0.000000000000000000 ) ) ;
#388 = ORIENTED_EDGE ( 'NONE', *, *, #205, .F. ) ;
#389 = AXIS2_PLACEMENT_3D ( 'NONE', #367, #176, #82 ) ;
#390 = CARTESIAN_POINT ( 'NONE',  ( -10.00000000000000711, 0.000000000000000000, 50.00000000000000000 ) ) ;
#391 = DIRECTION ( 'NONE',  ( -0.000000000000000000, 0.000000000000000000, 1.000000000000000000 ) ) ;
#392 = DIRECTION ( 'NONE',  ( 0.000000000000000000, 0.000000000000000000, 1.000000000000000000 ) ) ;
#393 = EDGE_LOOP ( 'NONE', ( #86 ) ) ;
#394 = DIRECTION ( 'NONE',  ( -1.000000000000000000, 0.000000000000000000, -0.000000000000000000 ) ) ;
#395 = ORIENTED_EDGE ( 'NONE', *, *, #258, .T. ) ;
#396 = CIRCLE ( 'NONE', #241, 39.07067067862185183 ) ;
#397 = FACE_OUTER_BOUND ( 'NONE', #49, .T. ) ;
#398 = CIRCLE ( 'NONE', #407, 17.50000000000000000 ) ;
#399 = EDGE_CURVE ( 'NONE', #175, #175, #249, .T. ) ;
#400 = DIRECTION ( 'NONE',  ( -1.000000000000000000, -0.000000000000000000, -0.000000000000000000 ) ) ;
#401 = CARTESIAN_POINT ( 'NONE',  ( 10.00000000000000355, 0.000000000000000000, 17.50000000000000000 ) ) ;
#402 = CARTESIAN_POINT ( 'NONE',  ( 10.00000000000000355, 0.000000000000000000, 22.50000000000000000 ) ) ;
#403 = DIRECTION ( 'NONE',  ( -1.000000000000000000, -0.000000000000000000, -0.000000000000000000 ) ) ;
#404 = EDGE_CURVE ( 'NONE', #118, #118, #216, .T. ) ;
#405 = EDGE_LOOP ( 'NONE', ( #300 ) ) ;
#406 = CIRCLE ( 'NONE', #284, 50.00000000000000000 ) ;
#407 = AXIS2_PLACEMENT_3D ( 'NONE', #37, #227, #160 ) ;
#408 = APPROVAL_STATUS ( 'not_yet_approved' ) ;
#409 = FACE_OUTER_BOUND ( 'NONE', #405, .T. ) ;
ENDSEC;
END-ISO-10303-21;
